吉他谱

为吉他爱好者提供最全最新的吉他曲谱

返回首页 | 好吉他琴行 | 吉他学院 | 吉他谱专题 | 吉他工具 | 帮助

为吉他爱好者提供最全最新的吉他曲谱

我以為吉他谱: 歌手品冠, TXT文本格式, QiYao供谱。

我以為

歌手:品冠 供谱者:QiYao 评论此谱 / 打印版本

给此谱打分:

-------------------------------------------------------------------------------
歌曲名:我以為 
歌手/乐队:品冠
编配者 :QiYao
-------------------------------------------------------------------------------
曲调:A

e|---9-9-10-10-9---------9-9-10-10-9----9---9-9-10-10-9----------------9-10-9|
B|---------------12-10---------------12-----------------12-10-12-10-12-------|
G|---------------------------------------------------------------------------|
D|---------------------------------------------------------------------------|
A|-0-------------------------------------------------------------------------|
E|---------------------------------------------------------------------------|


e|---------9-9-10-10-9---------------------------------------9-9-10--------9-|
B|-12-10---------------12-10-------10-10--9-10---------12-12------------12---|
G|-----------------------------9-9---------------11-11----------------9------|
D|---------------------------------------------------------------------------|
A|---------------------------------------------------------------------------|
E|---------------------------------------------------------------------------|


e|-10-9----------------------------------------------------------------------|
B|------12-------------------------------------------------------------------|
G|---------------------------------------------------------------------------|
D|---------------------------------------------------------------------------|
A|----------0----------------------------------------------------------------|
E|---------------------------------------------------------------------------|



===============================================================================


A              E
 你曾說不想有天讓我知道

      F#m       C#m
 你對他  有那麼好

        D         A
 你說會懂  我的失落

       Bm             E
 不是靠寬容  就能夠解脫

A              E
 我以為我出現的時候剛好

      F#m         C#m
 你和他  正說要分開

        D          A
 我以為你  已對他不再期待

      Bm            E      
 不縱容他  再給你傷害


A               A 
 我以為我的溫柔  能給你整個宇宙

F#m            C#m   
 我以為我能全力填滿你感情的缺口

D               A
 專心陪在你左右  彌補他一切的錯

Bm              E              A
 也許我太過天真  以為奇蹟會發生


A              E
 我以為終究你會慢慢明白

      F#m         C#m
 他的心  已不在你身上

      D            A
 我的關心  你依然無動於衷

      Bm             E
 我的以為  只是我以為


A               A
 我以為我的溫柔  能給你整個宇宙

F#m            C#m
 我以為我能全力填滿你感情的缺口

D               A
 專心陪在你左右  彌補他一切的錯

Bm              E
 也許我太過天真  以為奇蹟會發生

A               A
 他讓你紅了眼眶  你卻還笑著原諒

F#m            C#m
 原來你早就想好你要留在誰的身旁

D               A 
 我以為我夠堅強  卻一天天的失望

Bm              E              F     F
 少給我一點希望  希望就不是奢望


Bb              Bb
 我以為我的溫柔  能給你整個宇宙

Gm             Dm
 我以為我能全力填滿你感情的缺口

Eb              Bb
 專心陪在你左右  彌補他一切的錯

Cm              F
 也許我太過天真  以為奇蹟會發生

Bb              Bb
 他讓你紅了眼眶  你卻還笑著原諒

Gm             Dm
 原來你早就想好你要留在誰的身旁

Eb              Bb
 我以為我夠堅強  卻輸得那麼絕望

Cm              F             Bb
 少給我一點希望  希望就不是奢望



**尾奏=將前奏升半音

吉他谱 http://www.jitapu.com
我们欢迎您转载曲谱,但请保留我们的地址和作者名!



分享到: