吉他谱

为吉他爱好者提供最全最新的吉他曲谱

返回首页 | 好吉他琴行 | 吉他学院 | 吉他谱专题 | 吉他工具 | 帮助

为吉他爱好者提供最全最新的吉他曲谱

最幸福的人吉他谱: 歌手欢子, TXT文本格式, 584613927供谱。

最幸福的人

歌手:欢子 供谱者:584613927 评论此谱 / 打印版本

给此谱打分:

-------------------------------------------------------------------------------
歌曲名:最幸福的人
歌手/乐队:欢子
编配者(转载来源):584613927
-------------------------------------------------------------------------------
前奏部分;学吉他的人都应该伴奏下去吧 1

EM                                                                              DM                                               G

e|----------------------------------------------------0------------3--------3-0------3--3--0-0-----3-------5-------5----3----5----|
B|------------------------------0-0--------0------------0-------------------------3-3------------3--------------------------------|
G|----------0-----------0-----------2-2-----2------------0-----------2---------2-------0-----------0-----------0------------------|
G|-----0-2----2-2--2-----2--------------------------------------0-----------------------------------------------------------------|
A|--2---------------------------------------------0-------------------------------------------------------------------------------|
E|---------------------------------------------------------------------------------------------------------------5------------3---|

  写不下了,不过学吉他的朋友我想都能把它拌下来的!这首歌在网上不好找!为了把它篇的更好!!!!!

本人抽出宝贵时间跟大家一起分享下最幸福的人吉他谱!本人将详细讲解和弦及伴奏方法!!!!!!


和弦已 5 3 2 3 1 3 2 3 +{ 5 3 1 2}为主!!但要把它节奏感强化好,本人分别给配音有一些改变!


有些就不共鸣哈!1111111111111  望多多支持!去我空间只拿谱不留言的网友小心被册哦!11 

吉他谱制作人:Q584613927 空间地址:http://user.qzone.qq.com/584613927/infocenter



最幸福的人

出品公司:东嘉娱乐 

E遇上一个人5 3 2 3 [12] 3 2 3 D 要多少缘分 4 3 2 3 [12] 3 2 3括号是共鸣的。
AM茫茫人海擦肩而过 5 8 4 6 1 3 9 2 7 G多少陌生人 G调和弦不用按一弦
E但你的眼神 D触动我的心 D调和弦最后一音划到五品 划弦应该懂吧!!1
G我愿意用所有 D换你一个转身 D 调和弦弹到尾声不用按一弦哈!1   
E爱上一个人 D要多少缘分    同第一句一样撒!1  要谱的朋友可以要留言顶下哈
AM心甘情愿5 3 1 2 D为你付出 C不觉得愚E蠢   最愚蠢的我!!
E爱你那么深 5 3 2 3 [12] 3 2 3 D爱得那么真  划到五品哈!
C真的好想这样 4 3 2 3 [12] 3 2 3 D让这份爱永EM恒 QQ5 8 4 6 1 3 9 2 7  

你D知不知道你C就是我最爱的E人 
D为你赴汤蹈火也C不是不可EM能 
D从来都没有 C爱过这么EM深 

D遇上你我感觉我是C最幸运的EM人 
你知EM不知道你就是我AM最爱的D人 
D为你放弃一切也C不是不可E能 
D从来都没有C爱过这么E深 
D爱上你我感觉我是C最幸福的E人 
后面高潮已扫弦节奏哈! ↑  ↑ ↓↑    ↑  ↑↓
爱上你我感觉我是最幸福的人 
本站歌词来自互联网

+Q584613927

EM                                                                              DM                                               G

e|----------------------------------------------------0------------3--------3-0------3--3--0-0-----3-------5-------5----3----5----|
B|------------------------------0-0--------0------------0-------------------------3-3------------3--------------------------------|
G|----------0-----------0-----------2-2-----2------------0-----------2---------2-------0-----------0-----------0------------------|
G|-----0-2----2-2--2-----2--------------------------------------0-----------------------------------------------------------------|
A|--2---------------------------------------------0-------------------------------------------------------------------------------|
E|---------------------------------------------------------------------------------------------------------------5------------3---|

| /  上滑
| \  下滑
| h  击弦
| p  推弦
| ~  颤音
| +  和声
| x  闷音
===============================================================================

吉他谱 http://www.jitapu.com
我们欢迎您转载曲谱,但请保留我们的地址和作者名!



分享到: