吉他谱

为吉他爱好者提供最全最新的吉他曲谱

返回首页 | 玩乐酷商城 |社区 | 吉他学院 | 吉他谱专题 | 吉他工具 | 帮助

为吉他爱好者提供最全最新的吉他曲谱

潜龙勿用吉他谱: 歌手谢霆锋, TXT文本格式, 7682894供谱。

潜龙勿用

歌手:谢霆锋 供谱者:7682894 评论此谱 / 打印版本

给此谱打分:

-------------------------------------------------------------------------------
歌曲名:潜龙勿用
歌手/乐队:谢霆锋
编配者(转载来源):7682894(提供)
-------------------------------------------------------------------------------

  Intro:
        Am                     G                      F                    E
E||----------------------|------------0---------|----------------------|----------------------|
B||------------0----1----|-----------------0----|-----------------0----|-----------------3----|
G||----------------------|----------------------|------------2---------|------------1---------|
D||-------2--------------|----------------------|----------------------|-------2--------------|
A||--0-------------------|-------2--------------|-------3--------------|----------------------|
E||----------------------|--3-------------------|--1-------------------|--0-------------------|

           Am                     G                      F                     E
   E||----------------------|------------0---------|----------------------|----------------------|
   B||------------0----1----|-----------------0----|-----------------0----|----------------------|
   G||----------------------|----------------------|------------2---------|------------1---------|
   D||-------2--------------|----------------------|----------------------|-------2--------------|
   A||--0-------------------|-------2--------------|-------3--------------|----------------------|
   E||----------------------|--3-------------------|--1-------------------|--0-------------------|

   Am       G            F       E
   贵 重 财 物 要 好 秘 密
   Am       G        F      E
   你 就 藏 在 我   身
   Am       G     F        E
   用 电 话 绳 箍 到 颈 背 敏 感
   E  Am    E     F        G        Am
   你 年 年 日 日 继 续 留 下 我 指 纹

   Am       G         F      E
   你 别 移 动 你 好 大 尘
   Am       G      F     E
   快 用 肥 皂 擦  身
   Am       G     F        E
   就 像 颈    乖 乖 跟 我 贴 紧
   E     Am    E        F        G        Am
   我 们 明 明 蜜 运   宇 宙 唯 独 我 二 人


         Am                      G                        F                   E
   给 你 精 细 的 血 管   给 你 精 美 的 五 官     不 等 於 你 须 要 公 开 搞 试 用
   Am                   G                           F            E
   给 你 一 柄 手 枪   不 要 给 你 子 弹     它 会 跟 你 缠 绵 地 沟 通
   Am                     G                         F                 E
   给 你 一 对 手   不 等 於 要 拥 呀 拥     不 要 拥 抱 拥 到 歇 斯 底 里
         Am    E         F        G           Am
   做 到 人 人 乐 用     这 是 承 诺 你 懂 不 懂

          Am          G           F        E
 *为 何 拿 甜 言 蜜 语 印 证 你 嘴 巴 有 用
            Am          G           F        E
   别 以 为 长 期 陪 着 我 会 废 掉 嘴 角 武 功
         Am          G           F        E
   为 何 拿 眉 头 额 角 印 证 你 美 色 有 用
         Am    E        F        G           Am
   记 住 潜 龙 勿 用   这 样 玄 妙 你 懂 不 懂

   Am       G        F       E
   你 像 财 物 要 守 秘 密
   Am       G     F      E
   你 就 藏 在 我 心
   Am       G           F     E
   用 甚 麽 双 手 双 脚 找 你 新 生
         Am       E        F        G           Am
   以 後    人 就 勿 近   以 後 宁 愿 你 不 是 人

        Am              G               F           E
 #给你精细的血管 给你精美的五官偏要  给你给你一颗心跃动
   Am            G             F            E
   给你一柄手枪 给你一发子弹  不等於要放进谁的胸
   Am            G             F                E
   给你一对手 偏要给你拥呀拥  所以抵你抵你歇斯底里
         Am    E         F     G              Am
   誓 要 人 人 乐 用     有 用 无 用 你 懂 不 懂
   Repeat *#



分享到: